Tracy Chapman - For You (var.2) Guitar tab download free or play online

Guitar tab for For You (var.2) by Tracy Chapman free download and read or play online: file .txt, 2.98 kb has 67 views and 0 downloads.

Download guitar tab "For You (var.2)" (Tracy Chapman)

Tracy Chapman Band name
For You Song name
Guitar tabs Tab type
2.98 kb File size
.TXT File type
67 views
0 downloads
 
Are you robot?

For You (var.2) guitar tab read and play online

                    From: ihateuw@u.washington.edu (David Wong)
Date: 15 Jul 92 09:56:49 GMT

From: "Jasper Laterveer" 
Subject: c/chapman_tracy/for_you.tab
Date: Fri, 31 May 2002 19:56:33 +0200


                                     FOR YOU
                          As recorded by Tracy Chapman


  Q=3D102

Intro:

 4/4
|------------------|---0--------------|------------------|---------------= ----|
|-3---0-0------0---|-3---2-2------2---|-3---0-1------1---|-1---0-3------3= ---o|
|---0-------2----2-|-----------2----2-|---0-------0----0-|---0-------2---= -2--|
|------------------|------------------|------------------|---------------= ----|
|-2-----0--(0)-----|-2-----0--(0)-----|-2-----3--(3)-----|-3-----0--(0)--= ---o|
|------------------|------------------|------------------|---------------= ----|

Couplet:

 4/4
|------------------|---0--------------|------------------|---------------= ---|
|-3---0-0------0---|-3---2-2------2---|-3---0-1------1---|-1---0-3------3= ---|
|---0-------2----2-|-----------2----2-|---0-------0----0-|---0-------2---= -2-|
|------------------|------------------|------------------|---------------= ---|
|-2-----0--(0)-----|-2-----0--(0)-----|-2-----3--(3)-----|-3-----0--(0)--= ---|
|------------------|------------------|------------------|---------------= ---|


|------------------|------------------|------------------|---------------= |
|-3---0-0------0---|-1---0-3------3---|-3---0-2------2---|-3---0-1-(1)---= |
|---0-------2----2-|---0-------2----2-|---2-------2----2-|---2-----------= |
|------------------|------------------|------------------|---------------= |
|-2-----0--(0)-----|-3-----0--(0)-----|-2-----0--(0)-----|-0-----3-(3)---= |
|------------------|------------------|------------------|---------------=
|


|------------------|---------------|------------------|------------------= |
|-3---0-0------0---|-3---0-1-(1)---|-3---0-0------0---|-1---0-3------3---= |
|---0-------2----2-|---2-----------|---0-------2----2-|---0-------2----2-= |
|------------------|---------------|------------------|------------------= |
|-2-----0--(0)-----|-0-----3-(3)---|-2-----0--(0)-----|-3-----0--(0)-----= |
|------------------|---------------|------------------|------------------= |


|------------------|----------------|
|-3---0-0------0---|-1---0-3-(3)----|
|---0-------2----2-|---0------------|
|------------------|----------------|
|-2-----0--(0)-----|-3-----0-(0)----|
|------------------|----------------|


Verse:

  Em        Em        C         C
  |  | |
  /  / /

|---------|---------|---------|-----|
|---------|---------|---------|-----|
|---------|---------|---------|-----|
|---------|---------|---------|-----|
|---------|---------|---------|-----|
|---------|---------|---------|-----|


  Am7       Am7       C         C
|---------|---------|---------|-----|
|---------|---------|---------|-----|
|---------|---------|---------|-----|
|---------|---------|---------|-----|
|---------|---------|---------|-----|
|---------|---------|---------|-----|



Copyright (c) 2001 by OLGA, Inc.                    

Comments for guitar tab — For You (var.2) (Tracy Chapman)

Other For You (var.2) by Tracy Chapman tabs:

Last viewed Tracy Chapman tabs: